ISO-10303-21;
HEADER;
/* Generated by software containing ST-Developer
 * from STEP Tools, Inc. (www.steptools.com) 
 */

FILE_DESCRIPTION(
/* description */ (''),
/* implementation_level */ '2;1');

FILE_NAME(
/* name */ 'SAHN50R.dxf',
/* time_stamp */ '2012-11-23T16:51:11+08:00',
/* author */ (''),
/* organization */ (''),
/* preprocessor_version */ 'ST-DEVELOPER v9',
/* originating_system */ 'UGS - NX 4.0',
/* authorisation */ '');

FILE_SCHEMA (('CONFIG_CONTROL_DESIGN'));
ENDSEC;

DATA;
#10=SHAPE_REPRESENTATION_RELATIONSHIP('None',
'relationship between AdmiD164xn93-None and AdmiD164xn93-None',#94,#11);
#11=ADVANCED_BREP_SHAPE_REPRESENTATION('AdmiD164xn93-None',(#95),#371);
#12=CC_DESIGN_APPROVAL(#24,(#82));
#13=CC_DESIGN_APPROVAL(#25,(#84));
#14=CC_DESIGN_APPROVAL(#26,(#31));
#15=APPROVAL_PERSON_ORGANIZATION(#69,#24,#18);
#16=APPROVAL_PERSON_ORGANIZATION(#70,#25,#19);
#17=APPROVAL_PERSON_ORGANIZATION(#71,#26,#20);
#18=APPROVAL_ROLE('approver');
#19=APPROVAL_ROLE('approver');
#20=APPROVAL_ROLE('approver');
#21=APPROVAL_DATE_TIME(#39,#24);
#22=APPROVAL_DATE_TIME(#40,#25);
#23=APPROVAL_DATE_TIME(#41,#26);
#24=APPROVAL(#27,' ');
#25=APPROVAL(#28,' ');
#26=APPROVAL(#29,' ');
#27=APPROVAL_STATUS('not_yet_approved');
#28=APPROVAL_STATUS('not_yet_approved');
#29=APPROVAL_STATUS('not_yet_approved');
#30=CC_DESIGN_SECURITY_CLASSIFICATION(#31,(#84));
#31=SECURITY_CLASSIFICATION(' ',' ',#32);
#32=SECURITY_CLASSIFICATION_LEVEL('confidential');
#33=CC_DESIGN_DATE_AND_TIME_ASSIGNMENT(#37,#35,(#82));
#34=CC_DESIGN_DATE_AND_TIME_ASSIGNMENT(#38,#36,(#31));
#35=DATE_TIME_ROLE('creation_date');
#36=DATE_TIME_ROLE('classification_date');
#37=DATE_AND_TIME(#52,#42);
#38=DATE_AND_TIME(#53,#43);
#39=DATE_AND_TIME(#54,#44);
#40=DATE_AND_TIME(#55,#45);
#41=DATE_AND_TIME(#56,#46);
#42=LOCAL_TIME(0,0,0.,#47);
#43=LOCAL_TIME(0,0,0.,#48);
#44=LOCAL_TIME(0,0,0.,#49);
#45=LOCAL_TIME(0,0,0.,#50);
#46=LOCAL_TIME(0,0,0.,#51);
#47=COORDINATED_UNIVERSAL_TIME_OFFSET(0,0,.BEHIND.);
#48=COORDINATED_UNIVERSAL_TIME_OFFSET(0,0,.BEHIND.);
#49=COORDINATED_UNIVERSAL_TIME_OFFSET(0,0,.BEHIND.);
#50=COORDINATED_UNIVERSAL_TIME_OFFSET(0,0,.BEHIND.);
#51=COORDINATED_UNIVERSAL_TIME_OFFSET(0,0,.BEHIND.);
#52=CALENDAR_DATE(0,1,1);
#53=CALENDAR_DATE(0,1,1);
#54=CALENDAR_DATE(0,1,1);
#55=CALENDAR_DATE(0,1,1);
#56=CALENDAR_DATE(0,1,1);
#57=CC_DESIGN_PERSON_AND_ORGANIZATION_ASSIGNMENT(#65,#61,(#82,#84));
#58=CC_DESIGN_PERSON_AND_ORGANIZATION_ASSIGNMENT(#66,#62,(#86));
#59=CC_DESIGN_PERSON_AND_ORGANIZATION_ASSIGNMENT(#67,#63,(#84));
#60=CC_DESIGN_PERSON_AND_ORGANIZATION_ASSIGNMENT(#68,#64,(#31));
#61=PERSON_AND_ORGANIZATION_ROLE('creator');
#62=PERSON_AND_ORGANIZATION_ROLE('design_owner');
#63=PERSON_AND_ORGANIZATION_ROLE('design_supplier');
#64=PERSON_AND_ORGANIZATION_ROLE('classification_officer');
#65=PERSON_AND_ORGANIZATION(#79,#72);
#66=PERSON_AND_ORGANIZATION(#79,#73);
#67=PERSON_AND_ORGANIZATION(#79,#74);
#68=PERSON_AND_ORGANIZATION(#79,#75);
#69=PERSON_AND_ORGANIZATION(#79,#76);
#70=PERSON_AND_ORGANIZATION(#79,#77);
#71=PERSON_AND_ORGANIZATION(#79,#78);
#72=ORGANIZATION(' ',' ',' ');
#73=ORGANIZATION(' ',' ',' ');
#74=ORGANIZATION(' ',' ',' ');
#75=ORGANIZATION(' ',' ',' ');
#76=ORGANIZATION(' ',' ',' ');
#77=ORGANIZATION(' ',' ',' ');
#78=ORGANIZATION(' ',' ',' ');
#79=PERSON(' ',' ',' ',(' '),$,$);
#80=SHAPE_DEFINITION_REPRESENTATION(#81,#94);
#81=PRODUCT_DEFINITION_SHAPE('','',#82);
#82=PRODUCT_DEFINITION(' ','',#84,#83);
#83=DESIGN_CONTEXT('',#93,'design');
#84=PRODUCT_DEFINITION_FORMATION_WITH_SPECIFIED_SOURCE(' ',' ',#86,.NOT_KNOWN.);
#85=PRODUCT_RELATED_PRODUCT_CATEGORY('detail','',(#86));
#86=PRODUCT('AdmiD164xn93','AdmiD164xn93',' ',(#91));
#87=PRODUCT_CATEGORY_RELATIONSHIP(' ',' ',#89,#90);
#88=PRODUCT_CATEGORY_RELATIONSHIP('','',#90,#85);
#89=PRODUCT_CATEGORY('part',' ');
#90=PRODUCT_CATEGORY(' ','');
#91=MECHANICAL_CONTEXT(' ',#93,'mechanical');
#92=APPLICATION_PROTOCOL_DEFINITION('international standard',
'config_control_design',1994,#93);
#93=APPLICATION_CONTEXT(
'configuration controlled 3D designs of mechanical parts and assemblies
');
#94=SHAPE_REPRESENTATION('AdmiD164xn93-None',(#245),#371);
#95=MANIFOLD_SOLID_BREP('',#96);
#96=CLOSED_SHELL('',(#109,#110,#111,#112,#113,#114,#115,#116,#117,#118,#119,
#120,#121,#122));
#97=TOROIDAL_SURFACE('',#259,8.99999999999984,2.);
#98=TOROIDAL_SURFACE('',#263,13.9999999999999,3.);
#99=TOROIDAL_SURFACE('',#267,23.9999999999998,1.);
#100=TOROIDAL_SURFACE('',#271,23.9999999999998,1.);
#101=PLANE('',#251);
#102=PLANE('',#257);
#103=PLANE('',#265);
#104=PLANE('',#272);
#105=CYLINDRICAL_SURFACE('',#249,4.49999999999978);
#106=CYLINDRICAL_SURFACE('',#253,4.99999999999978);
#107=CYLINDRICAL_SURFACE('',#261,10.9999999999999);
#108=CYLINDRICAL_SURFACE('',#269,24.9999999999998);
#109=ADVANCED_FACE('',(#209,#125),#123,.F.);
#110=ADVANCED_FACE('',(#210,#211),#105,.F.);
#111=ADVANCED_FACE('',(#212,#126),#101,.T.);
#112=ADVANCED_FACE('',(#213,#214),#106,.F.);
#113=ADVANCED_FACE('',(#215,#127),#124,.F.);
#114=ADVANCED_FACE('',(#216,#128),#102,.T.);
#115=ADVANCED_FACE('',(#217,#218),#97,.T.);
#116=ADVANCED_FACE('',(#219,#220),#107,.T.);
#117=ADVANCED_FACE('',(#221,#222),#98,.F.);
#118=ADVANCED_FACE('',(#223,#129),#103,.T.);
#119=ADVANCED_FACE('',(#224,#225),#99,.T.);
#120=ADVANCED_FACE('',(#226,#227),#108,.T.);
#121=ADVANCED_FACE('',(#228,#229),#100,.T.);
#122=ADVANCED_FACE('',(#130),#104,.T.);
#123=CONICAL_SURFACE('',#247,1.,59.9999999999895);
#124=CONICAL_SURFACE('',#255,5.99999999999956,44.9999999999928);
#125=FACE_OUTER_BOUND('',#131,.T.);
#126=FACE_OUTER_BOUND('',#135,.T.);
#127=FACE_OUTER_BOUND('',#139,.T.);
#128=FACE_OUTER_BOUND('',#141,.T.);
#129=FACE_OUTER_BOUND('',#149,.T.);
#130=FACE_OUTER_BOUND('',#156,.T.);
#131=EDGE_LOOP('',(#157));
#132=EDGE_LOOP('',(#158));
#133=EDGE_LOOP('',(#159));
#134=EDGE_LOOP('',(#160));
#135=EDGE_LOOP('',(#161));
#136=EDGE_LOOP('',(#162));
#137=EDGE_LOOP('',(#163));
#138=EDGE_LOOP('',(#164));
#139=EDGE_LOOP('',(#165));
#140=EDGE_LOOP('',(#166));
#141=EDGE_LOOP('',(#167));
#142=EDGE_LOOP('',(#168));
#143=EDGE_LOOP('',(#169));
#144=EDGE_LOOP('',(#170));
#145=EDGE_LOOP('',(#171));
#146=EDGE_LOOP('',(#172));
#147=EDGE_LOOP('',(#173));
#148=EDGE_LOOP('',(#174));
#149=EDGE_LOOP('',(#175));
#150=EDGE_LOOP('',(#176));
#151=EDGE_LOOP('',(#177));
#152=EDGE_LOOP('',(#178));
#153=EDGE_LOOP('',(#179));
#154=EDGE_LOOP('',(#180));
#155=EDGE_LOOP('',(#181));
#156=EDGE_LOOP('',(#182));
#157=ORIENTED_EDGE('',*,*,#183,.F.);
#158=ORIENTED_EDGE('',*,*,#183,.T.);
#159=ORIENTED_EDGE('',*,*,#184,.F.);
#160=ORIENTED_EDGE('',*,*,#184,.T.);
#161=ORIENTED_EDGE('',*,*,#185,.F.);
#162=ORIENTED_EDGE('',*,*,#185,.T.);
#163=ORIENTED_EDGE('',*,*,#186,.F.);
#164=ORIENTED_EDGE('',*,*,#186,.T.);
#165=ORIENTED_EDGE('',*,*,#187,.F.);
#166=ORIENTED_EDGE('',*,*,#187,.T.);
#167=ORIENTED_EDGE('',*,*,#188,.F.);
#168=ORIENTED_EDGE('',*,*,#188,.T.);
#169=ORIENTED_EDGE('',*,*,#189,.F.);
#170=ORIENTED_EDGE('',*,*,#189,.T.);
#171=ORIENTED_EDGE('',*,*,#190,.F.);
#172=ORIENTED_EDGE('',*,*,#190,.T.);
#173=ORIENTED_EDGE('',*,*,#191,.F.);
#174=ORIENTED_EDGE('',*,*,#191,.T.);
#175=ORIENTED_EDGE('',*,*,#192,.F.);
#176=ORIENTED_EDGE('',*,*,#192,.T.);
#177=ORIENTED_EDGE('',*,*,#193,.F.);
#178=ORIENTED_EDGE('',*,*,#193,.T.);
#179=ORIENTED_EDGE('',*,*,#194,.F.);
#180=ORIENTED_EDGE('',*,*,#194,.T.);
#181=ORIENTED_EDGE('',*,*,#195,.F.);
#182=ORIENTED_EDGE('',*,*,#195,.T.);
#183=EDGE_CURVE('',#232,#232,#196,.T.);
#184=EDGE_CURVE('',#233,#233,#197,.T.);
#185=EDGE_CURVE('',#234,#234,#198,.T.);
#186=EDGE_CURVE('',#235,#235,#199,.T.);
#187=EDGE_CURVE('',#236,#236,#200,.T.);
#188=EDGE_CURVE('',#237,#237,#201,.T.);
#189=EDGE_CURVE('',#238,#238,#202,.T.);
#190=EDGE_CURVE('',#239,#239,#203,.T.);
#191=EDGE_CURVE('',#240,#240,#204,.T.);
#192=EDGE_CURVE('',#241,#241,#205,.T.);
#193=EDGE_CURVE('',#242,#242,#206,.T.);
#194=EDGE_CURVE('',#243,#243,#207,.T.);
#195=EDGE_CURVE('',#244,#244,#208,.T.);
#196=CIRCLE('',#246,4.49999999999978);
#197=CIRCLE('',#248,4.49999999999978);
#198=CIRCLE('',#250,4.99999999999978);
#199=CIRCLE('',#252,4.99999999999978);
#200=CIRCLE('',#254,5.99999999999956);
#201=CIRCLE('',#256,8.99999999999987);
#202=CIRCLE('',#258,10.9999999999999);
#203=CIRCLE('',#260,10.9999999999999);
#204=CIRCLE('',#262,13.9999999999999);
#205=CIRCLE('',#264,23.9999999999998);
#206=CIRCLE('',#266,24.9999999999998);
#207=CIRCLE('',#268,24.9999999999998);
#208=CIRCLE('',#270,23.9999999999998);
#209=FACE_BOUND('',#230,.T.);
#210=FACE_BOUND('',#132,.T.);
#211=FACE_BOUND('',#133,.T.);
#212=FACE_BOUND('',#134,.T.);
#213=FACE_BOUND('',#136,.T.);
#214=FACE_BOUND('',#137,.T.);
#215=FACE_BOUND('',#138,.T.);
#216=FACE_BOUND('',#140,.T.);
#217=FACE_BOUND('',#142,.T.);
#218=FACE_BOUND('',#143,.T.);
#219=FACE_BOUND('',#144,.T.);
#220=FACE_BOUND('',#145,.T.);
#221=FACE_BOUND('',#146,.T.);
#222=FACE_BOUND('',#147,.T.);
#223=FACE_BOUND('',#148,.T.);
#224=FACE_BOUND('',#150,.T.);
#225=FACE_BOUND('',#151,.T.);
#226=FACE_BOUND('',#152,.T.);
#227=FACE_BOUND('',#153,.T.);
#228=FACE_BOUND('',#154,.T.);
#229=FACE_BOUND('',#155,.T.);
#230=VERTEX_LOOP('',#231);
#231=VERTEX_POINT('',#330);
#232=VERTEX_POINT('',#332);
#233=VERTEX_POINT('',#335);
#234=VERTEX_POINT('',#338);
#235=VERTEX_POINT('',#341);
#236=VERTEX_POINT('',#344);
#237=VERTEX_POINT('',#347);
#238=VERTEX_POINT('',#350);
#239=VERTEX_POINT('',#353);
#240=VERTEX_POINT('',#356);
#241=VERTEX_POINT('',#359);
#242=VERTEX_POINT('',#362);
#243=VERTEX_POINT('',#365);
#244=VERTEX_POINT('',#368);
#245=AXIS2_PLACEMENT_3D('',#329,#273,#274);
#246=AXIS2_PLACEMENT_3D('',#331,#275,#276);
#247=AXIS2_PLACEMENT_3D('',#333,#277,#278);
#248=AXIS2_PLACEMENT_3D('',#334,#279,#280);
#249=AXIS2_PLACEMENT_3D('',#336,#281,#282);
#250=AXIS2_PLACEMENT_3D('',#337,#283,#284);
#251=AXIS2_PLACEMENT_3D('',#339,#285,#286);
#252=AXIS2_PLACEMENT_3D('',#340,#287,#288);
#253=AXIS2_PLACEMENT_3D('',#342,#289,#290);
#254=AXIS2_PLACEMENT_3D('',#343,#291,#292);
#255=AXIS2_PLACEMENT_3D('',#345,#293,#294);
#256=AXIS2_PLACEMENT_3D('',#346,#295,#296);
#257=AXIS2_PLACEMENT_3D('',#348,#297,#298);
#258=AXIS2_PLACEMENT_3D('',#349,#299,#300);
#259=AXIS2_PLACEMENT_3D('',#351,#301,#302);
#260=AXIS2_PLACEMENT_3D('',#352,#303,#304);
#261=AXIS2_PLACEMENT_3D('',#354,#305,#306);
#262=AXIS2_PLACEMENT_3D('',#355,#307,#308);
#263=AXIS2_PLACEMENT_3D('',#357,#309,#310);
#264=AXIS2_PLACEMENT_3D('',#358,#311,#312);
#265=AXIS2_PLACEMENT_3D('',#360,#313,#314);
#266=AXIS2_PLACEMENT_3D('',#361,#315,#316);
#267=AXIS2_PLACEMENT_3D('',#363,#317,#318);
#268=AXIS2_PLACEMENT_3D('',#364,#319,#320);
#269=AXIS2_PLACEMENT_3D('',#366,#321,#322);
#270=AXIS2_PLACEMENT_3D('',#367,#323,#324);
#271=AXIS2_PLACEMENT_3D('',#369,#325,#326);
#272=AXIS2_PLACEMENT_3D('',#370,#327,#328);
#273=DIRECTION('',(0.,0.,1.));
#274=DIRECTION('',(1.,0.,0.));
#275=DIRECTION('',(-1.,0.,0.));
#276=DIRECTION('',(0.,0.,1.));
#277=DIRECTION('',(1.,0.,0.));
#278=DIRECTION('',(-4.80463275994363E-017,0.,-1.));
#279=DIRECTION('',(-1.,0.,0.));
#280=DIRECTION('',(0.,0.,1.));
#281=DIRECTION('',(-1.,0.,0.));
#282=DIRECTION('',(0.,0.,1.));
#283=DIRECTION('',(-1.,0.,0.));
#284=DIRECTION('',(0.,0.,1.));
#285=DIRECTION('',(1.,0.,0.));
#286=DIRECTION('',(0.,0.,-1.));
#287=DIRECTION('',(-1.,0.,0.));
#288=DIRECTION('',(0.,0.,1.));
#289=DIRECTION('',(-1.,0.,0.));
#290=DIRECTION('',(0.,0.,1.));
#291=DIRECTION('',(-1.,0.,0.));
#292=DIRECTION('',(0.,0.,1.));
#293=DIRECTION('',(1.,0.,0.));
#294=DIRECTION('',(2.75900354032165E-017,0.,-1.));
#295=DIRECTION('',(-1.,0.,0.));
#296=DIRECTION('',(0.,0.,1.));
#297=DIRECTION('',(1.,0.,0.));
#298=DIRECTION('',(0.,0.,-1.));
#299=DIRECTION('',(-1.,0.,0.));
#300=DIRECTION('',(0.,0.,1.));
#301=DIRECTION('',(-1.,0.,0.));
#302=DIRECTION('',(0.,0.,1.));
#303=DIRECTION('',(-1.,0.,0.));
#304=DIRECTION('',(0.,0.,1.));
#305=DIRECTION('',(-1.,0.,0.));
#306=DIRECTION('',(0.,0.,1.));
#307=DIRECTION('',(-1.,0.,0.));
#308=DIRECTION('',(0.,0.,1.));
#309=DIRECTION('',(-1.,0.,0.));
#310=DIRECTION('',(0.,0.,1.));
#311=DIRECTION('',(-1.,0.,0.));
#312=DIRECTION('',(0.,0.,1.));
#313=DIRECTION('',(1.,0.,0.));
#314=DIRECTION('',(0.,0.,-1.));
#315=DIRECTION('',(-1.,0.,0.));
#316=DIRECTION('',(0.,0.,1.));
#317=DIRECTION('',(-1.,0.,0.));
#318=DIRECTION('',(0.,0.,1.));
#319=DIRECTION('',(-1.,0.,0.));
#320=DIRECTION('',(0.,0.,1.));
#321=DIRECTION('',(-1.,0.,0.));
#322=DIRECTION('',(0.,0.,1.));
#323=DIRECTION('',(-1.,0.,0.));
#324=DIRECTION('',(0.,0.,1.));
#325=DIRECTION('',(-1.,0.,0.));
#326=DIRECTION('',(0.,0.,1.));
#327=DIRECTION('',(-1.,0.,0.));
#328=DIRECTION('',(0.,0.,1.));
#329=CARTESIAN_POINT('',(0.,0.,0.));
#330=CARTESIAN_POINT('',(174.401923788647,135.,0.));
#331=CARTESIAN_POINT('',(177.,135.,0.));
#332=CARTESIAN_POINT('',(177.,135.,4.49999999999978));
#333=CARTESIAN_POINT('',(174.979274057836,135.,0.));
#334=CARTESIAN_POINT('',(180.,135.,0.));
#335=CARTESIAN_POINT('',(180.,135.,4.49999999999978));
#336=CARTESIAN_POINT('',(171.,135.,0.));
#337=CARTESIAN_POINT('',(180.,135.,0.));
#338=CARTESIAN_POINT('',(180.,135.,4.99999999999978));
#339=CARTESIAN_POINT('',(180.,140.,0.));
#340=CARTESIAN_POINT('',(197.,135.,0.));
#341=CARTESIAN_POINT('',(197.,135.,4.99999999999978));
#342=CARTESIAN_POINT('',(171.,135.,0.));
#343=CARTESIAN_POINT('',(198.,135.,0.));
#344=CARTESIAN_POINT('',(198.,135.,5.99999999999956));
#345=CARTESIAN_POINT('',(198.,135.,0.));
#346=CARTESIAN_POINT('',(198.,135.,0.));
#347=CARTESIAN_POINT('',(198.,135.,8.99999999999987));
#348=CARTESIAN_POINT('',(198.,144.,0.));
#349=CARTESIAN_POINT('',(196.,135.,0.));
#350=CARTESIAN_POINT('',(196.,135.,10.9999999999999));
#351=CARTESIAN_POINT('',(196.,135.,0.));
#352=CARTESIAN_POINT('',(186.,135.,0.));
#353=CARTESIAN_POINT('',(186.,135.,10.9999999999999));
#354=CARTESIAN_POINT('',(171.,135.,0.));
#355=CARTESIAN_POINT('',(183.,135.,0.));
#356=CARTESIAN_POINT('',(183.,135.,13.9999999999999));
#357=CARTESIAN_POINT('',(186.,135.,0.));
#358=CARTESIAN_POINT('',(183.,135.,0.));
#359=CARTESIAN_POINT('',(183.,135.,23.9999999999998));
#360=CARTESIAN_POINT('',(183.,159.,0.));
#361=CARTESIAN_POINT('',(182.,135.,0.));
#362=CARTESIAN_POINT('',(182.,135.,24.9999999999998));
#363=CARTESIAN_POINT('',(182.,135.,0.));
#364=CARTESIAN_POINT('',(171.,135.,0.));
#365=CARTESIAN_POINT('',(171.,135.,24.9999999999998));
#366=CARTESIAN_POINT('',(171.,135.,0.));
#367=CARTESIAN_POINT('',(170.,135.,0.));
#368=CARTESIAN_POINT('',(170.,135.,23.9999999999998));
#369=CARTESIAN_POINT('',(171.,135.,0.));
#370=CARTESIAN_POINT('',(170.,135.,0.));
#371=(
GEOMETRIC_REPRESENTATION_CONTEXT(3)
GLOBAL_UNCERTAINTY_ASSIGNED_CONTEXT((#372))
GLOBAL_UNIT_ASSIGNED_CONTEXT((#378,#374,#373))
REPRESENTATION_CONTEXT('SAHN50R','TOP_LEVEL_ASSEMBLY_PART')
);
#372=UNCERTAINTY_MEASURE_WITH_UNIT(LENGTH_MEASURE(2.E-005),#378,
'DISTANCE_ACCURACY_VALUE','Maximum Tolerance applied to model');
#373=(
NAMED_UNIT(*)
SI_UNIT($,.STERADIAN.)
SOLID_ANGLE_UNIT()
);
#374=(
CONVERSION_BASED_UNIT('DEGREE',#376)
NAMED_UNIT(#375)
PLANE_ANGLE_UNIT()
);
#375=DIMENSIONAL_EXPONENTS(0.,0.,0.,0.,0.,0.,0.);
#376=PLANE_ANGLE_MEASURE_WITH_UNIT(PLANE_ANGLE_MEASURE(0.0174532925),#377);
#377=(
NAMED_UNIT(*)
PLANE_ANGLE_UNIT()
SI_UNIT($,.RADIAN.)
);
#378=(
LENGTH_UNIT()
NAMED_UNIT(*)
SI_UNIT(.MILLI.,.METRE.)
);
ENDSEC;
END-ISO-10303-21;
